ISO-10303-21;
HEADER;
FILE_DESCRIPTION (( 'STEP AP203' ),
    '1' );
FILE_NAME ('bj712-14022.STEP',
    '2021-10-24T23:58:55',
    ( '' ),
    ( '' ),
    'SwSTEP 2.0',
    'SolidWorks 2020',
    '' );
FILE_SCHEMA (( 'CONFIG_CONTROL_DESIGN' ));
ENDSEC;

DATA;
#1 = PERSON_AND_ORGANIZATION_ROLE ( 'design_owner' ) ;
#2 = EDGE_CURVE ( 'NONE', #198, #236, #202, .T. ) ;
#3 = DIRECTION ( 'NONE',  ( 0.000000000000000000, 0.000000000000000000, 1.000000000000000000 ) ) ;
#4 = ORIENTED_EDGE ( 'NONE', *, *, #15, .F. ) ;
#5 = LINE ( 'NONE', #374, #120 ) ;
#6 = CARTESIAN_POINT ( 'NONE',  ( 11.00000000000000000, 7.000000000000000000, 0.000000000000000000 ) ) ;
#7 = EDGE_LOOP ( 'NONE', ( #132, #265, #4, #90 ) ) ;
#8 = DIRECTION ( 'NONE',  ( 0.000000000000000000, 0.000000000000000000, 1.000000000000000000 ) ) ;
#9 = PRODUCT ( 'bj712-14022', 'bj712-14022', '', ( #373 ) ) ;
#10 = CARTESIAN_POINT ( 'NONE',  ( -11.00000000000000000, -7.000000000000000000, 10.00000000000000000 ) ) ;
#11 = VECTOR ( 'NONE', #170, 1000.000000000000000 ) ;
#12 = ORIENTED_EDGE ( 'NONE', *, *, #127, .T. ) ;
#13 = CARTESIAN_POINT ( 'NONE',  ( -11.00000000000000000, 7.000000000000000000, 10.00000000000000000 ) ) ;
#14 = DATE_TIME_ROLE ( 'creation_date' ) ;
#15 = EDGE_CURVE ( 'NONE', #253, #81, #366, .T. ) ;
#16 = CIRCLE ( 'NONE', #102, 3.500000000000000000 ) ;
#17 = APPLICATION_CONTEXT ( 'configuration controlled 3d designs of mechanical parts and assemblies' ) ;
#18 = PLANE ( 'NONE',  #324 ) ;
#19 = CARTESIAN_POINT ( 'NONE',  ( 3.500000000000000000, 0.000000000000000000, 3.500000000000000000 ) ) ;
#20 = SHAPE_DEFINITION_REPRESENTATION ( #246, #182 ) ;
#21 = CIRCLE ( 'NONE', #252, 5.500000000000000000 ) ;
#22 = ADVANCED_FACE ( 'NONE', ( #363 ), #61, .F. ) ;
#23 = CARTESIAN_POINT ( 'NONE',  ( -11.00000000000000000, -7.000000000000000000, 10.00000000000000000 ) ) ;
#24 = FACE_OUTER_BOUND ( 'NONE', #218, .T. ) ;
#25 = DIRECTION ( 'NONE',  ( 1.000000000000000000, -1.577021341797100025E-16, 0.000000000000000000 ) ) ;
#26 = CARTESIAN_POINT ( 'NONE',  ( 0.000000000000000000, 0.000000000000000000, 3.500000000000000000 ) ) ;
#27 = EDGE_CURVE ( 'NONE', #236, #148, #219, .T. ) ;
#28 = LINE ( 'NONE', #10, #196 ) ;
#29 = EDGE_LOOP ( 'NONE', ( #79, #348, #149, #104 ) ) ;
#30 = CC_DESIGN_SECURITY_CLASSIFICATION ( #47, ( #287 ) ) ;
#31 = ORIENTED_EDGE ( 'NONE', *, *, #51, .T. ) ;
#32 = LINE ( 'NONE', #121, #92 ) ;
#33 = EDGE_LOOP ( 'NONE', ( #323, #103, #221, #368 ) ) ;
#34 = AXIS2_PLACEMENT_3D ( 'NONE', #105, #223, #305 ) ;
#35 = CARTESIAN_POINT ( 'NONE',  ( 0.000000000000000000, 0.000000000000000000, 3.500000000000000000 ) ) ;
#36 = UNCERTAINTY_MEASURE_WITH_UNIT (LENGTH_MEASURE( 1.000000000000000082E-05 ), #203, 'distance_accuracy_value', 'NONE');
#37 = PERSON_AND_ORGANIZATION_ROLE ( 'creator' ) ;
#38 = APPROVAL_ROLE ( '' ) ;
#39 = PERSON_AND_ORGANIZATION ( #125, #40 ) ;
#40 = ORGANIZATION ( 'UNSPECIFIED', 'UNSPECIFIED', '' ) ;
#41 = EDGE_CURVE ( 'NONE', #290, #64, #76, .T. ) ;
#42 = CARTESIAN_POINT ( 'NONE',  ( 0.000000000000000000, 0.000000000000000000, 3.500000000000000000 ) ) ;
#43 = CARTESIAN_POINT ( 'NONE',  ( 5.500000000000000000, 0.000000000000000000, 3.500000000000000000 ) ) ;
#44 = DIRECTION ( 'NONE',  ( 0.000000000000000000, 0.000000000000000000, -1.000000000000000000 ) ) ;
#45 = DIRECTION ( 'NONE',  ( 1.000000000000000000, 0.000000000000000000, 0.000000000000000000 ) ) ;
#46 = DIRECTION ( 'NONE',  ( 0.000000000000000000, 0.000000000000000000, 1.000000000000000000 ) ) ;
#47 = SECURITY_CLASSIFICATION ( '', '', #376 ) ;
#48 = EDGE_CURVE ( 'NONE', #236, #198, #100, .T. ) ;
#49 = FACE_OUTER_BOUND ( 'NONE', #7, .T. ) ;
#50 = ORIENTED_EDGE ( 'NONE', *, *, #237, .T. ) ;
#51 = EDGE_CURVE ( 'NONE', #306, #235, #194, .T. ) ;
#52 = AXIS2_PLACEMENT_3D ( 'NONE', #298, #389, #45 ) ;
#53 = DIRECTION ( 'NONE',  ( 1.000000000000000000, 0.000000000000000000, 0.000000000000000000 ) ) ;
#54 = FACE_OUTER_BOUND ( 'NONE', #29, .T. ) ;
#55 = DIRECTION ( 'NONE',  ( 0.000000000000000000, 0.000000000000000000, 1.000000000000000000 ) ) ;
#56 = CARTESIAN_POINT ( 'NONE',  ( -11.00000000000000000, -7.000000000000000000, 0.000000000000000000 ) ) ;
#57 = EDGE_LOOP ( 'NONE', ( #205, #193, #137, #162 ) ) ;
#58 = CARTESIAN_POINT ( 'NONE',  ( 5.500000000000000000, 0.000000000000000000, 10.00000000000000000 ) ) ;
#59 = ORIENTED_EDGE ( 'NONE', *, *, #48, .F. ) ;
#60 = CARTESIAN_POINT ( 'NONE',  ( -11.00000000000000000, 7.000000000000000000, 0.000000000000000000 ) ) ;
#61 = PLANE ( 'NONE',  #335 ) ;
#62 = VECTOR ( 'NONE', #80, 1000.000000000000000 ) ;
#63 = VECTOR ( 'NONE', #282, 1000.000000000000000 ) ;
#64 = VERTEX_POINT ( 'NONE', #378 ) ;
#65 = PERSON_AND_ORGANIZATION ( #125, #40 ) ;
#66 = EDGE_CURVE ( 'NONE', #187, #290, #156, .T. ) ;
#67 = DATE_AND_TIME ( #133, #336 ) ;
#68 = LOCAL_TIME ( 8, 58, 55.00000000000000000, #284 ) ;
#69 = VERTEX_POINT ( 'NONE', #70 ) ;
#70 = CARTESIAN_POINT ( 'NONE',  ( -11.00000000000000000, -7.000000000000000000, 0.000000000000000000 ) ) ;
#71 = PERSON_AND_ORGANIZATION ( #125, #40 ) ;
#72 = ORIENTED_EDGE ( 'NONE', *, *, #237, .F. ) ;
#73 = CARTESIAN_POINT ( 'NONE',  ( 11.00000000000000000, 7.000000000000000000, 10.00000000000000000 ) ) ;
#74 = PERSON_AND_ORGANIZATION ( #125, #40 ) ;
#75 = AXIS2_PLACEMENT_3D ( 'NONE', #262, #391, #113 ) ;
#76 = LINE ( 'NONE', #188, #285 ) ;
#77 = EDGE_LOOP ( 'NONE', ( #116, #269, #12, #163 ) ) ;
#78 = CYLINDRICAL_SURFACE ( 'NONE', #294, 5.500000000000000000 ) ;
#79 = ORIENTED_EDGE ( 'NONE', *, *, #317, .F. ) ;
#80 = DIRECTION ( 'NONE',  ( 0.000000000000000000, 1.000000000000000000, 0.000000000000000000 ) ) ;
#81 = VERTEX_POINT ( 'NONE', #160 ) ;
#82 = PLANE ( 'NONE',  #379 ) ;
#83 = LINE ( 'NONE', #195, #279 ) ;
#84 = CARTESIAN_POINT ( 'NONE',  ( 11.00000000000000000, -7.000000000000000000, 10.00000000000000000 ) ) ;
#85 = VECTOR ( 'NONE', #155, 1000.000000000000000 ) ;
#86 = ORIENTED_EDGE ( 'NONE', *, *, #51, .F. ) ;
#87 = DIRECTION ( 'NONE',  ( 1.000000000000000000, 0.000000000000000000, 0.000000000000000000 ) ) ;
#88 = EDGE_LOOP ( 'NONE', ( #355, #266 ) ) ;
#89 = AXIS2_PLACEMENT_3D ( 'NONE', #272, #8, #390 ) ;
#90 = ORIENTED_EDGE ( 'NONE', *, *, #210, .F. ) ;
#91 = CALENDAR_DATE ( 2021, 25, 10 ) ;
#92 = VECTOR ( 'NONE', #199, 1000.000000000000000 ) ;
#93 = FACE_OUTER_BOUND ( 'NONE', #33, .T. ) ;
#94 = CYLINDRICAL_SURFACE ( 'NONE', #52, 3.500000000000000000 ) ;
#95 = ADVANCED_FACE ( 'NONE', ( #286, #49 ), #108, .F. ) ;
#96 = APPROVAL_DATE_TIME ( #206, #217 ) ;
#97 = AXIS2_PLACEMENT_3D ( 'NONE', #146, #267, #115 ) ;
#98 = APPROVAL_ROLE ( '' ) ;
#99 = COORDINATED_UNIVERSAL_TIME_OFFSET ( 9, 0, .AHEAD. ) ;
#100 = CIRCLE ( 'NONE', #383, 3.500000000000000000 ) ;
#101 = FACE_OUTER_BOUND ( 'NONE', #342, .T. ) ;
#102 = AXIS2_PLACEMENT_3D ( 'NONE', #42, #358, #313 ) ;
#103 = ORIENTED_EDGE ( 'NONE', *, *, #295, .F. ) ;
#104 = ORIENTED_EDGE ( 'NONE', *, *, #210, .T. ) ;
#105 = CARTESIAN_POINT ( 'NONE',  ( 0.000000000000000000, 0.000000000000000000, 10.00000000000000000 ) ) ;
#106 = CARTESIAN_POINT ( 'NONE',  ( -11.00000000000000000, 7.000000000000000000, 10.00000000000000000 ) ) ;
#107 = CARTESIAN_POINT ( 'NONE',  ( 3.500000000000000000, 0.000000000000000000, 3.500000000000000000 ) ) ;
#108 = PLANE ( 'NONE',  #250 ) ;
#109 = DIRECTION ( 'NONE',  ( 0.000000000000000000, 0.000000000000000000, 1.000000000000000000 ) ) ;
#110 = EDGE_CURVE ( 'NONE', #117, #187, #356, .T. ) ;
#111 = DIRECTION ( 'NONE',  ( -2.478176394252580155E-16, -1.000000000000000000, 0.000000000000000000 ) ) ;
#112 = DIRECTION ( 'NONE',  ( 0.000000000000000000, 0.000000000000000000, 1.000000000000000000 ) ) ;
#113 = DIRECTION ( 'NONE',  ( 1.000000000000000000, 0.000000000000000000, 0.000000000000000000 ) ) ;
#114 = APPROVAL_PERSON_ORGANIZATION ( #71, #200, #38 ) ;
#115 = DIRECTION ( 'NONE',  ( 1.000000000000000000, 0.000000000000000000, 0.000000000000000000 ) ) ;
#116 = ORIENTED_EDGE ( 'NONE', *, *, #364, .F. ) ;
#117 = VERTEX_POINT ( 'NONE', #106 ) ;
#118 = VERTEX_POINT ( 'NONE', #43 ) ;
#119 = APPROVAL_STATUS ( 'not_yet_approved' ) ;
#120 = VECTOR ( 'NONE', #270, 1000.000000000000000 ) ;
#121 = CARTESIAN_POINT ( 'NONE',  ( 11.00000000000000000, 7.000000000000000000, 10.00000000000000000 ) ) ;
#122 = EDGE_CURVE ( 'NONE', #118, #144, #318, .T. ) ;
#123 = ORIENTED_EDGE ( 'NONE', *, *, #110, .F. ) ;
#124 = CALENDAR_DATE ( 2021, 25, 10 ) ;
#125 = PERSON ( 'UNSPECIFIED', 'UNSPECIFIED', 'UNSPECIFIED', ('UNSPECIFIED'), ('UNSPECIFIED'), ('UNSPECIFIED') ) ;
#126 = LOCAL_TIME ( 8, 58, 55.00000000000000000, #370 ) ;
#127 = EDGE_CURVE ( 'NONE', #235, #306, #224, .T. ) ;
#128 = ORIENTED_EDGE ( 'NONE', *, *, #66, .F. ) ;
#129 = ORIENTED_EDGE ( 'NONE', *, *, #295, .T. ) ;
#130 = DIRECTION ( 'NONE',  ( -1.577021341797100025E-16, -1.000000000000000000, 0.000000000000000000 ) ) ;
#131 = DATE_AND_TIME ( #209, #264 ) ;
#132 = ORIENTED_EDGE ( 'NONE', *, *, #260, .F. ) ;
#133 = CALENDAR_DATE ( 2021, 25, 10 ) ;
#134 = PLANE ( 'NONE',  #166 ) ;
#135 = ORIENTED_EDGE ( 'NONE', *, *, #312, .T. ) ;
#136 = ORIENTED_EDGE ( 'NONE', *, *, #375, .T. ) ;
#137 = ORIENTED_EDGE ( 'NONE', *, *, #178, .T. ) ;
#138 = VECTOR ( 'NONE', #164, 1000.000000000000000 ) ;
#139 = EDGE_CURVE ( 'NONE', #117, #81, #229, .T. ) ;
#140 = CARTESIAN_POINT ( 'NONE',  ( -3.500000000000000000, 4.286263797015736595E-16, -1.734723475976804925E-15 ) ) ;
#141 = CARTESIAN_POINT ( 'NONE',  ( 5.500000000000000000, 0.000000000000000000, 10.00000000000000000 ) ) ;
#142 = DIRECTION ( 'NONE',  ( 0.000000000000000000, 0.000000000000000000, 1.000000000000000000 ) ) ;
#143 = LINE ( 'NONE', #141, #238 ) ;
#144 = VERTEX_POINT ( 'NONE', #214 ) ;
#145 = LOCAL_TIME ( 8, 58, 55.00000000000000000, #99 ) ;
#146 = CARTESIAN_POINT ( 'NONE',  ( 0.000000000000000000, 0.000000000000000000, 0.000000000000000000 ) ) ;
#147 = CC_DESIGN_DATE_AND_TIME_ASSIGNMENT ( #131, #185, ( #47 ) ) ;
#148 = VERTEX_POINT ( 'NONE', #19 ) ;
#149 = ORIENTED_EDGE ( 'NONE', *, *, #41, .T. ) ;
#150 = PLANE ( 'NONE',  #303 ) ;
#151 = APPROVAL ( #184, 'UNSPECIFIED' ) ;
#152 = PERSON_AND_ORGANIZATION_ROLE ( 'design_supplier' ) ;
#153 = APPROVAL_DATE_TIME ( #67, #200 ) ;
#154 = DIRECTION ( 'NONE',  ( -1.000000000000000000, 0.000000000000000000, 0.000000000000000000 ) ) ;
#155 = DIRECTION ( 'NONE',  ( 0.000000000000000000, 0.000000000000000000, -1.000000000000000000 ) ) ;
#156 = LINE ( 'NONE', #299, #181 ) ;
#157 = APPLICATION_CONTEXT ( 'configuration controlled 3d designs of mechanical parts and assemblies' ) ;
#158 = ORIENTED_EDGE ( 'NONE', *, *, #127, .F. ) ;
#159 = VECTOR ( 'NONE', #111, 1000.000000000000000 ) ;
#160 = CARTESIAN_POINT ( 'NONE',  ( -11.00000000000000000, 7.000000000000000000, 0.000000000000000000 ) ) ;
#161 = PRODUCT_DEFINITION ( 'UNKNOWN', '', #287, #277 ) ;
#162 = ORIENTED_EDGE ( 'NONE', *, *, #27, .F. ) ;
#163 = ORIENTED_EDGE ( 'NONE', *, *, #249, .F. ) ;
#164 = DIRECTION ( 'NONE',  ( 0.000000000000000000, 0.000000000000000000, 1.000000000000000000 ) ) ;
#165 = VERTEX_POINT ( 'NONE', #73 ) ;
#166 = AXIS2_PLACEMENT_3D ( 'NONE', #382, #130, #25 ) ;
#167 = DIRECTION ( 'NONE',  ( 1.000000000000000000, 0.000000000000000000, 0.000000000000000000 ) ) ;
#168 = CARTESIAN_POINT ( 'NONE',  ( -5.500000000000000000, 6.735557395310442023E-16, 10.00000000000000000 ) ) ;
#169 = ADVANCED_FACE ( 'NONE', ( #278, #315 ), #18, .T. ) ;
#170 = DIRECTION ( 'NONE',  ( -2.478176394252580155E-16, -1.000000000000000000, 0.000000000000000000 ) ) ;
#171 = CARTESIAN_POINT ( 'NONE',  ( 11.00000000000000000, 7.000000000000000000, 0.000000000000000000 ) ) ;
#172 = ORIENTED_EDGE ( 'NONE', *, *, #122, .T. ) ;
#173 = EDGE_CURVE ( 'NONE', #144, #235, #349, .T. ) ;
#174 = ORIENTED_EDGE ( 'NONE', *, *, #314, .T. ) ;
#175 = CIRCLE ( 'NONE', #371, 3.500000000000000000 ) ;
#176 = DIRECTION ( 'NONE',  ( 0.000000000000000000, 0.000000000000000000, -1.000000000000000000 ) ) ;
#177 = ADVANCED_FACE ( 'NONE', ( #93 ), #134, .F. ) ;
#178 = EDGE_CURVE ( 'NONE', #227, #148, #175, .T. ) ;
#179 = FACE_BOUND ( 'NONE', #191, .T. ) ;
#180 = APPROVAL_ROLE ( '' ) ;
#181 = VECTOR ( 'NONE', #337, 1000.000000000000000 ) ;
#182 = ADVANCED_BREP_SHAPE_REPRESENTATION ( 'bj712-14022', ( #280, #97 ), #332 ) ;
#183 = AXIS2_PLACEMENT_3D ( 'NONE', #300, #142, #311 ) ;
#184 = APPROVAL_STATUS ( 'not_yet_approved' ) ;
#185 = DATE_TIME_ROLE ( 'classification_date' ) ;
#186 = APPROVAL_PERSON_ORGANIZATION ( #65, #217, #180 ) ;
#187 = VERTEX_POINT ( 'NONE', #23 ) ;
#188 = CARTESIAN_POINT ( 'NONE',  ( 11.00000000000000000, -7.000000000000000000, 10.00000000000000000 ) ) ;
#189 = ORIENTED_EDGE ( 'NONE', *, *, #27, .T. ) ;
#190 = CC_DESIGN_APPROVAL ( #151, ( #47 ) ) ;
#191 = EDGE_LOOP ( 'NONE', ( #86, #158 ) ) ;
#192 = LINE ( 'NONE', #321, #216 ) ;
#193 = ORIENTED_EDGE ( 'NONE', *, *, #220, .T. ) ;
#194 = CIRCLE ( 'NONE', #34, 5.500000000000000000 ) ;
#195 = CARTESIAN_POINT ( 'NONE',  ( 11.00000000000000000, 7.000000000000000000, 10.00000000000000000 ) ) ;
#196 = VECTOR ( 'NONE', #176, 1000.000000000000000 ) ;
#197 = DIRECTION ( 'NONE',  ( 1.000000000000000000, 0.000000000000000000, 0.000000000000000000 ) ) ;
#198 = VERTEX_POINT ( 'NONE', #140 ) ;
#199 = DIRECTION ( 'NONE',  ( 0.000000000000000000, 0.000000000000000000, -1.000000000000000000 ) ) ;
#200 = APPROVAL ( #343, 'UNSPECIFIED' ) ;
#201 = FACE_OUTER_BOUND ( 'NONE', #77, .T. ) ;
#202 = CIRCLE ( 'NONE', #89, 3.500000000000000000 ) ;
#203 =( LENGTH_UNIT ( ) NAMED_UNIT ( * ) SI_UNIT ( .MILLI., .METRE. ) );
#204 = DIRECTION ( 'NONE',  ( 0.000000000000000000, 0.000000000000000000, 1.000000000000000000 ) ) ;
#205 = ORIENTED_EDGE ( 'NONE', *, *, #2, .F. ) ;
#206 = DATE_AND_TIME ( #91, #126 ) ;
#207 = PERSON_AND_ORGANIZATION ( #125, #40 ) ;
#208 = DIRECTION ( 'NONE',  ( 0.000000000000000000, 1.000000000000000000, 0.000000000000000000 ) ) ;
#209 = CALENDAR_DATE ( 2021, 25, 10 ) ;
#210 = EDGE_CURVE ( 'NONE', #64, #253, #351, .T. ) ;
#211 = CC_DESIGN_APPROVAL ( #200, ( #287 ) ) ;
#212 = CC_DESIGN_PERSON_AND_ORGANIZATION_ASSIGNMENT ( #39, #276, ( #47 ) ) ;
#213 = CALENDAR_DATE ( 2021, 25, 10 ) ;
#214 = CARTESIAN_POINT ( 'NONE',  ( -5.500000000000000000, 6.735557395310442023E-16, 3.500000000000000000 ) ) ;
#215 = PERSON_AND_ORGANIZATION_ROLE ( 'creator' ) ;
#216 = VECTOR ( 'NONE', #293, 1000.000000000000000 ) ;
#217 = APPROVAL ( #119, 'UNSPECIFIED' ) ;
#218 = EDGE_LOOP ( 'NONE', ( #387, #174, #129, #225 ) ) ;
#219 = LINE ( 'NONE', #288, #350 ) ;
#220 = EDGE_CURVE ( 'NONE', #198, #227, #192, .T. ) ;
#221 = ORIENTED_EDGE ( 'NONE', *, *, #317, .T. ) ;
#222 = CARTESIAN_POINT ( 'NONE',  ( 0.000000000000000000, 0.000000000000000000, -1.734723475976804925E-15 ) ) ;
#223 = DIRECTION ( 'NONE',  ( 0.000000000000000000, 0.000000000000000000, 1.000000000000000000 ) ) ;
#224 = CIRCLE ( 'NONE', #75, 5.500000000000000000 ) ;
#225 = ORIENTED_EDGE ( 'NONE', *, *, #110, .T. ) ;
#226 = ADVANCED_FACE ( 'NONE', ( #24, #179 ), #304, .T. ) ;
#227 = VERTEX_POINT ( 'NONE', #327 ) ;
#228 = CC_DESIGN_DATE_AND_TIME_ASSIGNMENT ( #244, #14, ( #161 ) ) ;
#229 = LINE ( 'NONE', #360, #85 ) ;
#230 = DIRECTION ( 'NONE',  ( -1.000000000000000000, 1.577021341797100025E-16, 0.000000000000000000 ) ) ;
#231 = CC_DESIGN_APPROVAL ( #217, ( #161 ) ) ;
#232 = DIRECTION ( 'NONE',  ( 1.000000000000000000, 0.000000000000000000, 0.000000000000000000 ) ) ;
#233 = ORIENTED_EDGE ( 'NONE', *, *, #173, .F. ) ;
#234 = FACE_OUTER_BOUND ( 'NONE', #57, .T. ) ;
#235 = VERTEX_POINT ( 'NONE', #168 ) ;
#236 = VERTEX_POINT ( 'NONE', #341 ) ;
#237 = EDGE_CURVE ( 'NONE', #148, #227, #16, .T. ) ;
#238 = VECTOR ( 'NONE', #3, 1000.000000000000000 ) ;
#239 = APPLICATION_PROTOCOL_DEFINITION ( 'international standard', 'config_control_design', 1994, #157 ) ;
#240 = CARTESIAN_POINT ( 'NONE',  ( -11.00000000000000000, -7.000000000000000000, 10.00000000000000000 ) ) ;
#241 = DIRECTION ( 'NONE',  ( 1.000000000000000000, 0.000000000000000000, 0.000000000000000000 ) ) ;
#242 = CARTESIAN_POINT ( 'NONE',  ( 11.00000000000000000, -7.000000000000000000, 10.00000000000000000 ) ) ;
#243 = ADVANCED_FACE ( 'NONE', ( #101 ), #94, .F. ) ;
#244 = DATE_AND_TIME ( #124, #68 ) ;
#245 = ADVANCED_FACE ( 'NONE', ( #54 ), #82, .F. ) ;
#246 = PRODUCT_DEFINITION_SHAPE ( 'NONE', 'NONE',  #161 ) ;
#247 = COORDINATED_UNIVERSAL_TIME_OFFSET ( 9, 0, .AHEAD. ) ;
#248 = DIRECTION ( 'NONE',  ( 0.000000000000000000, 0.000000000000000000, 1.000000000000000000 ) ) ;
#249 = EDGE_CURVE ( 'NONE', #118, #306, #143, .T. ) ;
#250 = AXIS2_PLACEMENT_3D ( 'NONE', #259, #109, #167 ) ;
#251 = DATE_AND_TIME ( #213, #145 ) ;
#252 = AXIS2_PLACEMENT_3D ( 'NONE', #35, #55, #87 ) ;
#253 = VERTEX_POINT ( 'NONE', #6 ) ;
#254 = PRODUCT_RELATED_PRODUCT_CATEGORY ( 'detail', '', ( #9 ) ) ;
#255 = DIRECTION ( 'NONE',  ( 1.000000000000000000, 0.000000000000000000, 0.000000000000000000 ) ) ;
#256 = CARTESIAN_POINT ( 'NONE',  ( 11.00000000000000000, -7.000000000000000000, 0.000000000000000000 ) ) ;
#257 = ORIENTED_EDGE ( 'NONE', *, *, #249, .T. ) ;
#258 = DIRECTION ( 'NONE',  ( 0.000000000000000000, 0.000000000000000000, 1.000000000000000000 ) ) ;
#259 = CARTESIAN_POINT ( 'NONE',  ( 11.00000000000000000, -7.000000000000000000, 0.000000000000000000 ) ) ;
#260 = EDGE_CURVE ( 'NONE', #69, #64, #357, .T. ) ;
#261 = DIRECTION ( 'NONE',  ( 1.000000000000000000, 0.000000000000000000, 0.000000000000000000 ) ) ;
#262 = CARTESIAN_POINT ( 'NONE',  ( 0.000000000000000000, 0.000000000000000000, 10.00000000000000000 ) ) ;
#263 = ORIENTED_EDGE ( 'NONE', *, *, #178, .F. ) ;
#264 = LOCAL_TIME ( 8, 58, 55.00000000000000000, #380 ) ;
#265 = ORIENTED_EDGE ( 'NONE', *, *, #375, .F. ) ;
#266 = ORIENTED_EDGE ( 'NONE', *, *, #2, .T. ) ;
#267 = DIRECTION ( 'NONE',  ( 0.000000000000000000, 0.000000000000000000, 1.000000000000000000 ) ) ;
#268 = CC_DESIGN_PERSON_AND_ORGANIZATION_ASSIGNMENT ( #207, #1, ( #9 ) ) ;
#269 = ORIENTED_EDGE ( 'NONE', *, *, #173, .T. ) ;
#270 = DIRECTION ( 'NONE',  ( 0.000000000000000000, 1.000000000000000000, 0.000000000000000000 ) ) ;
#271 = CARTESIAN_POINT ( 'NONE',  ( 0.000000000000000000, 0.000000000000000000, 10.00000000000000000 ) ) ;
#272 = CARTESIAN_POINT ( 'NONE',  ( 0.000000000000000000, 0.000000000000000000, -1.734723475976804925E-15 ) ) ;
#273 = ORIENTED_EDGE ( 'NONE', *, *, #122, .F. ) ;
#274 = LINE ( 'NONE', #60, #11 ) ;
#275 = CYLINDRICAL_SURFACE ( 'NONE', #281, 5.500000000000000000 ) ;
#276 = PERSON_AND_ORGANIZATION_ROLE ( 'classification_officer' ) ;
#277 = DESIGN_CONTEXT ( 'detailed design', #17, 'design' ) ;
#278 = FACE_OUTER_BOUND ( 'NONE', #361, .T. ) ;
#279 = VECTOR ( 'NONE', #230, 1000.000000000000000 ) ;
#280 = MANIFOLD_SOLID_BREP ( 'Imported1', #291 ) ;
#281 = AXIS2_PLACEMENT_3D ( 'NONE', #330, #302, #232 ) ;
#282 = DIRECTION ( 'NONE',  ( 1.000000000000000000, 0.000000000000000000, 0.000000000000000000 ) ) ;
#283 = CC_DESIGN_PERSON_AND_ORGANIZATION_ASSIGNMENT ( #338, #215, ( #161 ) ) ;
#284 = COORDINATED_UNIVERSAL_TIME_OFFSET ( 9, 0, .AHEAD. ) ;
#285 = VECTOR ( 'NONE', #44, 1000.000000000000000 ) ;
#286 = FACE_BOUND ( 'NONE', #88, .T. ) ;
#287 = PRODUCT_DEFINITION_FORMATION_WITH_SPECIFIED_SOURCE ( 'ANY', '', #9, .NOT_KNOWN. ) ;
#288 = CARTESIAN_POINT ( 'NONE',  ( 3.500000000000000000, 0.000000000000000000, 10.00000000000000000 ) ) ;
#289 = CC_DESIGN_PERSON_AND_ORGANIZATION_ASSIGNMENT ( #74, #37, ( #287 ) ) ;
#290 = VERTEX_POINT ( 'NONE', #242 ) ;
#291 = CLOSED_SHELL ( 'NONE', ( #377, #340, #226, #22, #245, #177, #354, #95, #309, #169, #243 ) ) ;
#292 = ORIENTED_EDGE ( 'NONE', *, *, #220, .F. ) ;
#293 = DIRECTION ( 'NONE',  ( 0.000000000000000000, 0.000000000000000000, 1.000000000000000000 ) ) ;
#294 = AXIS2_PLACEMENT_3D ( 'NONE', #271, #297, #241 ) ;
#295 = EDGE_CURVE ( 'NONE', #165, #117, #83, .T. ) ;
#296 = CARTESIAN_POINT ( 'NONE',  ( -11.00000000000000000, 7.000000000000000000, 10.00000000000000000 ) ) ;
#297 = DIRECTION ( 'NONE',  ( 0.000000000000000000, 0.000000000000000000, 1.000000000000000000 ) ) ;
#298 = CARTESIAN_POINT ( 'NONE',  ( 0.000000000000000000, 0.000000000000000000, 10.00000000000000000 ) ) ;
#299 = CARTESIAN_POINT ( 'NONE',  ( -11.00000000000000000, -7.000000000000000000, 10.00000000000000000 ) ) ;
#300 = CARTESIAN_POINT ( 'NONE',  ( 0.000000000000000000, 0.000000000000000000, 10.00000000000000000 ) ) ;
#301 = EDGE_LOOP ( 'NONE', ( #123, #328, #136, #325 ) ) ;
#302 = DIRECTION ( 'NONE',  ( 0.000000000000000000, 0.000000000000000000, 1.000000000000000000 ) ) ;
#303 = AXIS2_PLACEMENT_3D ( 'NONE', #13, #329, #331 ) ;
#304 = PLANE ( 'NONE',  #384 ) ;
#305 = DIRECTION ( 'NONE',  ( 1.000000000000000000, 0.000000000000000000, 0.000000000000000000 ) ) ;
#306 = VERTEX_POINT ( 'NONE', #58 ) ;
#307 = APPLICATION_PROTOCOL_DEFINITION ( 'international standard', 'config_control_design', 1994, #17 ) ;
#308 = DIRECTION ( 'NONE',  ( 0.000000000000000000, 0.000000000000000000, 1.000000000000000000 ) ) ;
#309 = ADVANCED_FACE ( 'NONE', ( #352 ), #78, .F. ) ;
#310 = AXIS2_PLACEMENT_3D ( 'NONE', #26, #326, #53 ) ;
#311 = DIRECTION ( 'NONE',  ( 1.000000000000000000, 0.000000000000000000, 0.000000000000000000 ) ) ;
#312 = EDGE_CURVE ( 'NONE', #187, #69, #28, .T. ) ;
#313 = DIRECTION ( 'NONE',  ( 1.000000000000000000, 0.000000000000000000, 0.000000000000000000 ) ) ;
#314 = EDGE_CURVE ( 'NONE', #290, #165, #5, .T. ) ;
#315 = FACE_BOUND ( 'NONE', #385, .T. ) ;
#316 = ORIENTED_EDGE ( 'NONE', *, *, #260, .T. ) ;
#317 = EDGE_CURVE ( 'NONE', #165, #253, #32, .T. ) ;
#318 = CIRCLE ( 'NONE', #310, 5.500000000000000000 ) ;
#319 = DIRECTION ( 'NONE',  ( 1.000000000000000000, 0.000000000000000000, 0.000000000000000000 ) ) ;
#320 = APPROVAL_PERSON_ORGANIZATION ( #344, #151, #98 ) ;
#321 = CARTESIAN_POINT ( 'NONE',  ( -3.500000000000000000, 4.286263797015736595E-16, 10.00000000000000000 ) ) ;
#322 = CARTESIAN_POINT ( 'NONE',  ( -5.500000000000000000, 6.735557395310442023E-16, 10.00000000000000000 ) ) ;
#323 = ORIENTED_EDGE ( 'NONE', *, *, #139, .F. ) ;
#324 = AXIS2_PLACEMENT_3D ( 'NONE', #107, #258, #261 ) ;
#325 = ORIENTED_EDGE ( 'NONE', *, *, #312, .F. ) ;
#326 = DIRECTION ( 'NONE',  ( 0.000000000000000000, 0.000000000000000000, 1.000000000000000000 ) ) ;
#327 = CARTESIAN_POINT ( 'NONE',  ( -3.500000000000000000, 4.286263797015736595E-16, 3.500000000000000000 ) ) ;
#328 = ORIENTED_EDGE ( 'NONE', *, *, #139, .T. ) ;
#329 = DIRECTION ( 'NONE',  ( 1.000000000000000000, -2.478176394252580155E-16, 0.000000000000000000 ) ) ;
#330 = CARTESIAN_POINT ( 'NONE',  ( 0.000000000000000000, 0.000000000000000000, 10.00000000000000000 ) ) ;
#331 = DIRECTION ( 'NONE',  ( 2.478176394252580155E-16, 1.000000000000000000, 0.000000000000000000 ) ) ;
#332 =( GEOMETRIC_REPRESENTATION_CONTEXT ( 3 ) GLOBAL_UNCERTAINTY_ASSIGNED_CONTEXT ( ( #36 ) ) GLOBAL_UNIT_ASSIGNED_CONTEXT ( ( #203, #333, #365 ) ) REPRESENTATION_CONTEXT ( 'NONE', 'WORKASPACE' ) );
#333 =( NAMED_UNIT ( * ) PLANE_ANGLE_UNIT ( ) SI_UNIT ( $, .RADIAN. ) );
#334 = CYLINDRICAL_SURFACE ( 'NONE', #183, 3.500000000000000000 ) ;
#335 = AXIS2_PLACEMENT_3D ( 'NONE', #240, #208, #308 ) ;
#336 = LOCAL_TIME ( 8, 58, 55.00000000000000000, #247 ) ;
#337 = DIRECTION ( 'NONE',  ( 1.000000000000000000, 0.000000000000000000, 0.000000000000000000 ) ) ;
#338 = PERSON_AND_ORGANIZATION ( #125, #40 ) ;
#339 = APPROVAL_DATE_TIME ( #251, #151 ) ;
#340 = ADVANCED_FACE ( 'NONE', ( #201 ), #275, .F. ) ;
#341 = CARTESIAN_POINT ( 'NONE',  ( 3.500000000000000000, 0.000000000000000000, -1.734723475976804925E-15 ) ) ;
#342 = EDGE_LOOP ( 'NONE', ( #292, #59, #189, #50 ) ) ;
#343 = APPROVAL_STATUS ( 'not_yet_approved' ) ;
#344 = PERSON_AND_ORGANIZATION ( #125, #40 ) ;
#345 = EDGE_LOOP ( 'NONE', ( #386, #128, #135, #316 ) ) ;
#346 = DIRECTION ( 'NONE',  ( 0.000000000000000000, 0.000000000000000000, 1.000000000000000000 ) ) ;
#347 = CC_DESIGN_PERSON_AND_ORGANIZATION_ASSIGNMENT ( #381, #152, ( #287 ) ) ;
#348 = ORIENTED_EDGE ( 'NONE', *, *, #314, .F. ) ;
#349 = LINE ( 'NONE', #322, #138 ) ;
#350 = VECTOR ( 'NONE', #346, 1000.000000000000000 ) ;
#351 = LINE ( 'NONE', #256, #62 ) ;
#352 = FACE_OUTER_BOUND ( 'NONE', #369, .T. ) ;
#353 = CARTESIAN_POINT ( 'NONE',  ( 11.00000000000000000, -7.000000000000000000, 10.00000000000000000 ) ) ;
#354 = ADVANCED_FACE ( 'NONE', ( #362 ), #150, .F. ) ;
#355 = ORIENTED_EDGE ( 'NONE', *, *, #48, .T. ) ;
#356 = LINE ( 'NONE', #296, #159 ) ;
#357 = LINE ( 'NONE', #56, #63 ) ;
#358 = DIRECTION ( 'NONE',  ( 0.000000000000000000, 0.000000000000000000, 1.000000000000000000 ) ) ;
#359 = ORIENTED_EDGE ( 'NONE', *, *, #364, .T. ) ;
#360 = CARTESIAN_POINT ( 'NONE',  ( -11.00000000000000000, 7.000000000000000000, 10.00000000000000000 ) ) ;
#361 = EDGE_LOOP ( 'NONE', ( #172, #359 ) ) ;
#362 = FACE_OUTER_BOUND ( 'NONE', #301, .T. ) ;
#363 = FACE_OUTER_BOUND ( 'NONE', #345, .T. ) ;
#364 = EDGE_CURVE ( 'NONE', #144, #118, #21, .T. ) ;
#365 =( NAMED_UNIT ( * ) SI_UNIT ( $, .STERADIAN. ) SOLID_ANGLE_UNIT ( ) );
#366 = LINE ( 'NONE', #171, #367 ) ;
#367 = VECTOR ( 'NONE', #372, 1000.000000000000000 ) ;
#368 = ORIENTED_EDGE ( 'NONE', *, *, #15, .T. ) ;
#369 = EDGE_LOOP ( 'NONE', ( #233, #273, #257, #31 ) ) ;
#370 = COORDINATED_UNIVERSAL_TIME_OFFSET ( 9, 0, .AHEAD. ) ;
#371 = AXIS2_PLACEMENT_3D ( 'NONE', #388, #112, #319 ) ;
#372 = DIRECTION ( 'NONE',  ( -1.000000000000000000, 1.577021341797100025E-16, 0.000000000000000000 ) ) ;
#373 = MECHANICAL_CONTEXT ( 'NONE', #157, 'mechanical' ) ;
#374 = CARTESIAN_POINT ( 'NONE',  ( 11.00000000000000000, -7.000000000000000000, 10.00000000000000000 ) ) ;
#375 = EDGE_CURVE ( 'NONE', #81, #69, #274, .T. ) ;
#376 = SECURITY_CLASSIFICATION_LEVEL ( 'unclassified' ) ;
#377 = ADVANCED_FACE ( 'NONE', ( #234 ), #334, .F. ) ;
#378 = CARTESIAN_POINT ( 'NONE',  ( 11.00000000000000000, -7.000000000000000000, 0.000000000000000000 ) ) ;
#379 = AXIS2_PLACEMENT_3D ( 'NONE', #353, #154, #248 ) ;
#380 = COORDINATED_UNIVERSAL_TIME_OFFSET ( 9, 0, .AHEAD. ) ;
#381 = PERSON_AND_ORGANIZATION ( #125, #40 ) ;
#382 = CARTESIAN_POINT ( 'NONE',  ( 11.00000000000000000, 7.000000000000000000, 10.00000000000000000 ) ) ;
#383 = AXIS2_PLACEMENT_3D ( 'NONE', #222, #46, #255 ) ;
#384 = AXIS2_PLACEMENT_3D ( 'NONE', #84, #204, #197 ) ;
#385 = EDGE_LOOP ( 'NONE', ( #72, #263 ) ) ;
#386 = ORIENTED_EDGE ( 'NONE', *, *, #41, .F. ) ;
#387 = ORIENTED_EDGE ( 'NONE', *, *, #66, .T. ) ;
#388 = CARTESIAN_POINT ( 'NONE',  ( 0.000000000000000000, 0.000000000000000000, 3.500000000000000000 ) ) ;
#389 = DIRECTION ( 'NONE',  ( 0.000000000000000000, 0.000000000000000000, 1.000000000000000000 ) ) ;
#390 = DIRECTION ( 'NONE',  ( 1.000000000000000000, 0.000000000000000000, 0.000000000000000000 ) ) ;
#391 = DIRECTION ( 'NONE',  ( 0.000000000000000000, 0.000000000000000000, 1.000000000000000000 ) ) ;
ENDSEC;
END-ISO-10303-21;
