ISO-10303-21;
HEADER;
FILE_DESCRIPTION (( 'STEP AP203' ),
    '1' );
FILE_NAME ('bj712-20022.STEP',
    '2021-10-24T23:59:02',
    ( '' ),
    ( '' ),
    'SwSTEP 2.0',
    'SolidWorks 2020',
    '' );
FILE_SCHEMA (( 'CONFIG_CONTROL_DESIGN' ));
ENDSEC;

DATA;
#1 = LINE ( 'NONE', #82, #365 ) ;
#2 = CARTESIAN_POINT ( 'NONE',  ( 3.500000000000000000, 0.000000000000000000, 3.500000000000000000 ) ) ;
#3 = ORIENTED_EDGE ( 'NONE', *, *, #219, .F. ) ;
#4 = DIRECTION ( 'NONE',  ( -1.000000000000000000, 1.577021341797100025E-16, 0.000000000000000000 ) ) ;
#5 = SECURITY_CLASSIFICATION ( '', '', #117 ) ;
#6 = DIRECTION ( 'NONE',  ( 1.000000000000000000, -1.577021341797100025E-16, 0.000000000000000000 ) ) ;
#7 = FACE_OUTER_BOUND ( 'NONE', #142, .T. ) ;
#8 = ORIENTED_EDGE ( 'NONE', *, *, #328, .F. ) ;
#9 = PERSON_AND_ORGANIZATION_ROLE ( 'design_owner' ) ;
#10 = AXIS2_PLACEMENT_3D ( 'NONE', #12, #87, #6 ) ;
#11 = ADVANCED_FACE ( 'NONE', ( #176, #316 ), #137, .T. ) ;
#12 = CARTESIAN_POINT ( 'NONE',  ( 11.00000000000000000, 10.00000000000000000, 10.00000000000000000 ) ) ;
#13 = VECTOR ( 'NONE', #286, 1000.000000000000000 ) ;
#14 = VERTEX_POINT ( 'NONE', #203 ) ;
#15 = VECTOR ( 'NONE', #207, 1000.000000000000000 ) ;
#16 = LINE ( 'NONE', #18, #338 ) ;
#17 = CC_DESIGN_DATE_AND_TIME_ASSIGNMENT ( #252, #125, ( #166 ) ) ;
#18 = CARTESIAN_POINT ( 'NONE',  ( 11.00000000000000000, 10.00000000000000000, 10.00000000000000000 ) ) ;
#19 = PERSON ( 'UNSPECIFIED', 'UNSPECIFIED', 'UNSPECIFIED', ('UNSPECIFIED'), ('UNSPECIFIED'), ('UNSPECIFIED') ) ;
#20 = AXIS2_PLACEMENT_3D ( 'NONE', #260, #200, #356 ) ;
#21 = EDGE_LOOP ( 'NONE', ( #149, #301 ) ) ;
#22 = ORIENTED_EDGE ( 'NONE', *, *, #71, .F. ) ;
#23 = VECTOR ( 'NONE', #270, 1000.000000000000000 ) ;
#24 = ORIENTED_EDGE ( 'NONE', *, *, #381, .T. ) ;
#25 = DIRECTION ( 'NONE',  ( 0.000000000000000000, 0.000000000000000000, 1.000000000000000000 ) ) ;
#26 = EDGE_LOOP ( 'NONE', ( #106, #349, #124, #379 ) ) ;
#27 = PLANE ( 'NONE',  #223 ) ;
#28 = DIRECTION ( 'NONE',  ( 0.000000000000000000, 1.000000000000000000, 0.000000000000000000 ) ) ;
#29 = FACE_OUTER_BOUND ( 'NONE', #234, .T. ) ;
#30 = CARTESIAN_POINT ( 'NONE',  ( 11.00000000000000000, -10.00000000000000000, 10.00000000000000000 ) ) ;
#31 = COORDINATED_UNIVERSAL_TIME_OFFSET ( 9, 0, .AHEAD. ) ;
#32 = AXIS2_PLACEMENT_3D ( 'NONE', #213, #88, #184 ) ;
#33 = ADVANCED_FACE ( 'NONE', ( #54 ), #27, .F. ) ;
#34 = CARTESIAN_POINT ( 'NONE',  ( 0.000000000000000000, 0.000000000000000000, 10.00000000000000000 ) ) ;
#35 = FACE_OUTER_BOUND ( 'NONE', #26, .T. ) ;
#36 = ORIENTED_EDGE ( 'NONE', *, *, #320, .F. ) ;
#37 = AXIS2_PLACEMENT_3D ( 'NONE', #81, #58, #165 ) ;
#38 = PLANE ( 'NONE',  #10 ) ;
#39 = VERTEX_POINT ( 'NONE', #264 ) ;
#40 = CALENDAR_DATE ( 2021, 25, 10 ) ;
#41 = CC_DESIGN_PERSON_AND_ORGANIZATION_ASSIGNMENT ( #196, #94, ( #355 ) ) ;
#42 = ADVANCED_FACE ( 'NONE', ( #29 ), #387, .F. ) ;
#43 = AXIS2_PLACEMENT_3D ( 'NONE', #358, #60, #279 ) ;
#44 = APPROVAL_DATE_TIME ( #68, #80 ) ;
#45 = PERSON_AND_ORGANIZATION ( #19, #268 ) ;
#46 = ORIENTED_EDGE ( 'NONE', *, *, #47, .F. ) ;
#47 = EDGE_CURVE ( 'NONE', #197, #357, #111, .T. ) ;
#48 = DIRECTION ( 'NONE',  ( 0.000000000000000000, 0.000000000000000000, 1.000000000000000000 ) ) ;
#49 = CARTESIAN_POINT ( 'NONE',  ( 11.00000000000000000, -10.00000000000000000, 10.00000000000000000 ) ) ;
#50 = FACE_OUTER_BOUND ( 'NONE', #103, .T. ) ;
#51 = ORIENTED_EDGE ( 'NONE', *, *, #151, .T. ) ;
#52 = AXIS2_PLACEMENT_3D ( 'NONE', #322, #178, #208 ) ;
#53 = CARTESIAN_POINT ( 'NONE',  ( -11.00000000000000000, 10.00000000000000000, 0.000000000000000000 ) ) ;
#54 = FACE_OUTER_BOUND ( 'NONE', #140, .T. ) ;
#55 = APPLICATION_CONTEXT ( 'configuration controlled 3d designs of mechanical parts and assemblies' ) ;
#56 = VECTOR ( 'NONE', #232, 1000.000000000000000 ) ;
#57 = CARTESIAN_POINT ( 'NONE',  ( 0.000000000000000000, 0.000000000000000000, 3.500000000000000000 ) ) ;
#58 = DIRECTION ( 'NONE',  ( 0.000000000000000000, 0.000000000000000000, 1.000000000000000000 ) ) ;
#59 = CIRCLE ( 'NONE', #52, 3.500000000000000000 ) ;
#60 = DIRECTION ( 'NONE',  ( 0.000000000000000000, 0.000000000000000000, 1.000000000000000000 ) ) ;
#61 = CARTESIAN_POINT ( 'NONE',  ( 11.00000000000000000, 10.00000000000000000, 10.00000000000000000 ) ) ;
#62 =( NAMED_UNIT ( * ) PLANE_ANGLE_UNIT ( ) SI_UNIT ( $, .RADIAN. ) );
#63 = LINE ( 'NONE', #296, #129 ) ;
#64 = EDGE_CURVE ( 'NONE', #289, #294, #288, .T. ) ;
#65 = CIRCLE ( 'NONE', #171, 3.500000000000000000 ) ;
#66 = CALENDAR_DATE ( 2021, 25, 10 ) ;
#67 = APPROVAL_DATE_TIME ( #225, #173 ) ;
#68 = DATE_AND_TIME ( #228, #276 ) ;
#69 = CC_DESIGN_APPROVAL ( #80, ( #355 ) ) ;
#70 = CALENDAR_DATE ( 2021, 25, 10 ) ;
#71 = EDGE_CURVE ( 'NONE', #238, #79, #370, .T. ) ;
#72 = DIRECTION ( 'NONE',  ( 1.000000000000000000, 0.000000000000000000, 0.000000000000000000 ) ) ;
#73 = ORIENTED_EDGE ( 'NONE', *, *, #182, .F. ) ;
#74 = VECTOR ( 'NONE', #148, 1000.000000000000000 ) ;
#75 = EDGE_LOOP ( 'NONE', ( #199, #22 ) ) ;
#76 = CARTESIAN_POINT ( 'NONE',  ( -11.00000000000000000, 10.00000000000000000, 10.00000000000000000 ) ) ;
#77 = PLANE ( 'NONE',  #179 ) ;
#78 = LINE ( 'NONE', #259, #15 ) ;
#79 = VERTEX_POINT ( 'NONE', #309 ) ;
#80 = APPROVAL ( #375, 'UNSPECIFIED' ) ;
#81 = CARTESIAN_POINT ( 'NONE',  ( 0.000000000000000000, 0.000000000000000000, 10.00000000000000000 ) ) ;
#82 = CARTESIAN_POINT ( 'NONE',  ( -11.00000000000000000, -10.00000000000000000, 10.00000000000000000 ) ) ;
#83 = DIRECTION ( 'NONE',  ( 0.000000000000000000, 0.000000000000000000, 1.000000000000000000 ) ) ;
#84 = LINE ( 'NONE', #211, #161 ) ;
#85 = CARTESIAN_POINT ( 'NONE',  ( 0.000000000000000000, 0.000000000000000000, 0.000000000000000000 ) ) ;
#86 = EDGE_CURVE ( 'NONE', #201, #367, #16, .T. ) ;
#87 = DIRECTION ( 'NONE',  ( -1.577021341797100025E-16, -1.000000000000000000, 0.000000000000000000 ) ) ;
#88 = DIRECTION ( 'NONE',  ( 0.000000000000000000, 1.000000000000000000, 0.000000000000000000 ) ) ;
#89 = ADVANCED_FACE ( 'NONE', ( #222 ), #302, .F. ) ;
#90 = DIRECTION ( 'NONE',  ( 1.000000000000000000, 0.000000000000000000, 0.000000000000000000 ) ) ;
#91 = ORIENTED_EDGE ( 'NONE', *, *, #127, .F. ) ;
#92 = PERSON_AND_ORGANIZATION_ROLE ( 'creator' ) ;
#93 = DIRECTION ( 'NONE',  ( 0.000000000000000000, 0.000000000000000000, 1.000000000000000000 ) ) ;
#94 = PERSON_AND_ORGANIZATION_ROLE ( 'design_supplier' ) ;
#95 = ORIENTED_EDGE ( 'NONE', *, *, #263, .T. ) ;
#96 = VERTEX_POINT ( 'NONE', #102 ) ;
#97 = COORDINATED_UNIVERSAL_TIME_OFFSET ( 9, 0, .AHEAD. ) ;
#98 = CARTESIAN_POINT ( 'NONE',  ( 0.000000000000000000, 0.000000000000000000, 10.00000000000000000 ) ) ;
#99 = CARTESIAN_POINT ( 'NONE',  ( -11.00000000000000000, 10.00000000000000000, 10.00000000000000000 ) ) ;
#100 = CIRCLE ( 'NONE', #326, 5.500000000000000000 ) ;
#101 = APPROVAL_PERSON_ORGANIZATION ( #342, #362, #123 ) ;
#102 = CARTESIAN_POINT ( 'NONE',  ( -5.500000000000000000, 6.735557395310442023E-16, 3.500000000000000000 ) ) ;
#103 = EDGE_LOOP ( 'NONE', ( #91, #285, #177, #315 ) ) ;
#104 = ORIENTED_EDGE ( 'NONE', *, *, #206, .T. ) ;
#105 = DIRECTION ( 'NONE',  ( 1.000000000000000000, 0.000000000000000000, 0.000000000000000000 ) ) ;
#106 = ORIENTED_EDGE ( 'NONE', *, *, #47, .T. ) ;
#107 = DIRECTION ( 'NONE',  ( -1.000000000000000000, 0.000000000000000000, 0.000000000000000000 ) ) ;
#108 = CARTESIAN_POINT ( 'NONE',  ( -3.500000000000000000, 4.286263797015736595E-16, -1.734723475976804925E-15 ) ) ;
#109 = ORIENTED_EDGE ( 'NONE', *, *, #135, .T. ) ;
#110 = CALENDAR_DATE ( 2021, 25, 10 ) ;
#111 = LINE ( 'NONE', #324, #253 ) ;
#112 = DIRECTION ( 'NONE',  ( 0.000000000000000000, 0.000000000000000000, 1.000000000000000000 ) ) ;
#113 = PRODUCT_RELATED_PRODUCT_CATEGORY ( 'detail', '', ( #122 ) ) ;
#114 = CARTESIAN_POINT ( 'NONE',  ( 11.00000000000000000, -10.00000000000000000, 10.00000000000000000 ) ) ;
#115 = MECHANICAL_CONTEXT ( 'NONE', #55, 'mechanical' ) ;
#116 = ORIENTED_EDGE ( 'NONE', *, *, #328, .T. ) ;
#117 = SECURITY_CLASSIFICATION_LEVEL ( 'unclassified' ) ;
#118 = AXIS2_PLACEMENT_3D ( 'NONE', #85, #327, #156 ) ;
#119 = DIRECTION ( 'NONE',  ( 0.000000000000000000, 0.000000000000000000, 1.000000000000000000 ) ) ;
#120 = ADVANCED_FACE ( 'NONE', ( #368 ), #38, .F. ) ;
#121 = ORIENTED_EDGE ( 'NONE', *, *, #64, .T. ) ;
#122 = PRODUCT ( 'bj712-20022', 'bj712-20022', '', ( #115 ) ) ;
#123 = APPROVAL_ROLE ( '' ) ;
#124 = ORIENTED_EDGE ( 'NONE', *, *, #283, .T. ) ;
#125 = DATE_TIME_ROLE ( 'creation_date' ) ;
#126 = EDGE_LOOP ( 'NONE', ( #95, #116 ) ) ;
#127 = EDGE_CURVE ( 'NONE', #96, #238, #155, .T. ) ;
#128 = VECTOR ( 'NONE', #28, 1000.000000000000000 ) ;
#129 = VECTOR ( 'NONE', #389, 1000.000000000000000 ) ;
#130 = ORIENTED_EDGE ( 'NONE', *, *, #174, .F. ) ;
#131 = DIRECTION ( 'NONE',  ( 1.000000000000000000, 0.000000000000000000, 0.000000000000000000 ) ) ;
#132 = ORIENTED_EDGE ( 'NONE', *, *, #206, .F. ) ;
#133 = ADVANCED_FACE ( 'NONE', ( #141, #383 ), #77, .F. ) ;
#134 = DIRECTION ( 'NONE',  ( 1.000000000000000000, 0.000000000000000000, 0.000000000000000000 ) ) ;
#135 = EDGE_CURVE ( 'NONE', #202, #261, #172, .T. ) ;
#136 = CIRCLE ( 'NONE', #20, 5.500000000000000000 ) ;
#137 = PLANE ( 'NONE',  #224 ) ;
#138 = CIRCLE ( 'NONE', #43, 3.500000000000000000 ) ;
#139 = DIRECTION ( 'NONE',  ( 1.000000000000000000, 0.000000000000000000, 0.000000000000000000 ) ) ;
#140 = EDGE_LOOP ( 'NONE', ( #348, #364, #262, #24 ) ) ;
#141 = FACE_BOUND ( 'NONE', #126, .T. ) ;
#142 = EDGE_LOOP ( 'NONE', ( #235, #46, #346, #104 ) ) ;
#143 = CARTESIAN_POINT ( 'NONE',  ( -11.00000000000000000, -10.00000000000000000, 10.00000000000000000 ) ) ;
#144 = FACE_OUTER_BOUND ( 'NONE', #145, .T. ) ;
#145 = EDGE_LOOP ( 'NONE', ( #291, #314, #109, #36 ) ) ;
#146 = VECTOR ( 'NONE', #4, 1000.000000000000000 ) ;
#147 = PLANE ( 'NONE',  #32 ) ;
#148 = DIRECTION ( 'NONE',  ( 0.000000000000000000, 1.000000000000000000, 0.000000000000000000 ) ) ;
#149 = ORIENTED_EDGE ( 'NONE', *, *, #269, .F. ) ;
#150 = CARTESIAN_POINT ( 'NONE',  ( -3.500000000000000000, 4.286263797015736595E-16, 3.500000000000000000 ) ) ;
#151 = EDGE_CURVE ( 'NONE', #198, #96, #136, .T. ) ;
#152 = CARTESIAN_POINT ( 'NONE',  ( 0.000000000000000000, 0.000000000000000000, 3.500000000000000000 ) ) ;
#153 = PRODUCT_DEFINITION_SHAPE ( 'NONE', 'NONE',  #166 ) ;
#154 = CARTESIAN_POINT ( 'NONE',  ( 11.00000000000000000, -10.00000000000000000, 0.000000000000000000 ) ) ;
#155 = LINE ( 'NONE', #273, #248 ) ;
#156 = DIRECTION ( 'NONE',  ( 1.000000000000000000, 0.000000000000000000, 0.000000000000000000 ) ) ;
#157 = CC_DESIGN_PERSON_AND_ORGANIZATION_ASSIGNMENT ( #45, #92, ( #166 ) ) ;
#158 = EDGE_CURVE ( 'NONE', #14, #202, #321, .T. ) ;
#159 = SHAPE_DEFINITION_REPRESENTATION ( #153, #169 ) ;
#160 = EDGE_CURVE ( 'NONE', #79, #238, #100, .T. ) ;
#161 = VECTOR ( 'NONE', #325, 1000.000000000000000 ) ;
#162 = EDGE_LOOP ( 'NONE', ( #8, #312, #121, #3 ) ) ;
#163 = EDGE_CURVE ( 'NONE', #357, #336, #380, .T. ) ;
#164 = PERSON_AND_ORGANIZATION_ROLE ( 'creator' ) ;
#165 = DIRECTION ( 'NONE',  ( 1.000000000000000000, 0.000000000000000000, 0.000000000000000000 ) ) ;
#166 = PRODUCT_DEFINITION ( 'UNKNOWN', '', #355, #226 ) ;
#167 = DIRECTION ( 'NONE',  ( 1.000000000000000000, 0.000000000000000000, 0.000000000000000000 ) ) ;
#168 = AXIS2_PLACEMENT_3D ( 'NONE', #152, #242, #300 ) ;
#169 = ADVANCED_BREP_SHAPE_REPRESENTATION ( 'bj712-20022', ( #323, #118 ), #243 ) ;
#170 = ORIENTED_EDGE ( 'NONE', *, *, #86, .T. ) ;
#171 = AXIS2_PLACEMENT_3D ( 'NONE', #251, #83, #209 ) ;
#172 = LINE ( 'NONE', #53, #13 ) ;
#173 = APPROVAL ( #330, 'UNSPECIFIED' ) ;
#174 = EDGE_CURVE ( 'NONE', #198, #79, #350, .T. ) ;
#175 = CARTESIAN_POINT ( 'NONE',  ( 0.000000000000000000, 0.000000000000000000, 10.00000000000000000 ) ) ;
#176 = FACE_OUTER_BOUND ( 'NONE', #282, .T. ) ;
#177 = ORIENTED_EDGE ( 'NONE', *, *, #174, .T. ) ;
#178 = DIRECTION ( 'NONE',  ( 0.000000000000000000, 0.000000000000000000, 1.000000000000000000 ) ) ;
#179 = AXIS2_PLACEMENT_3D ( 'NONE', #311, #204, #131 ) ;
#180 = LINE ( 'NONE', #341, #354 ) ;
#181 = CARTESIAN_POINT ( 'NONE',  ( 11.00000000000000000, -10.00000000000000000, 10.00000000000000000 ) ) ;
#182 = EDGE_CURVE ( 'NONE', #367, #202, #78, .T. ) ;
#183 = EDGE_CURVE ( 'NONE', #357, #201, #318, .T. ) ;
#184 = DIRECTION ( 'NONE',  ( 0.000000000000000000, 0.000000000000000000, 1.000000000000000000 ) ) ;
#185 =( LENGTH_UNIT ( ) NAMED_UNIT ( * ) SI_UNIT ( .MILLI., .METRE. ) );
#186 = UNCERTAINTY_MEASURE_WITH_UNIT (LENGTH_MEASURE( 1.000000000000000082E-05 ), #185, 'distance_accuracy_value', 'NONE');
#187 = PERSON_AND_ORGANIZATION ( #19, #268 ) ;
#188 = LOCAL_TIME ( 8, 59, 2.000000000000000000, #303 ) ;
#189 = ORIENTED_EDGE ( 'NONE', *, *, #219, .T. ) ;
#190 = CARTESIAN_POINT ( 'NONE',  ( -11.00000000000000000, 10.00000000000000000, 0.000000000000000000 ) ) ;
#191 = DATE_AND_TIME ( #70, #347 ) ;
#192 = AXIS2_PLACEMENT_3D ( 'NONE', #34, #361, #266 ) ;
#193 = PERSON_AND_ORGANIZATION ( #19, #268 ) ;
#194 = VERTEX_POINT ( 'NONE', #108 ) ;
#195 = ORIENTED_EDGE ( 'NONE', *, *, #269, .T. ) ;
#196 = PERSON_AND_ORGANIZATION ( #19, #268 ) ;
#197 = VERTEX_POINT ( 'NONE', #143 ) ;
#198 = VERTEX_POINT ( 'NONE', #297 ) ;
#199 = ORIENTED_EDGE ( 'NONE', *, *, #160, .F. ) ;
#200 = DIRECTION ( 'NONE',  ( 0.000000000000000000, 0.000000000000000000, 1.000000000000000000 ) ) ;
#201 = VERTEX_POINT ( 'NONE', #215 ) ;
#202 = VERTEX_POINT ( 'NONE', #190 ) ;
#203 = CARTESIAN_POINT ( 'NONE',  ( -11.00000000000000000, 10.00000000000000000, 10.00000000000000000 ) ) ;
#204 = DIRECTION ( 'NONE',  ( 0.000000000000000000, 0.000000000000000000, 1.000000000000000000 ) ) ;
#205 = DIRECTION ( 'NONE',  ( 0.000000000000000000, 0.000000000000000000, 1.000000000000000000 ) ) ;
#206 = EDGE_CURVE ( 'NONE', #261, #336, #84, .T. ) ;
#207 = DIRECTION ( 'NONE',  ( -1.000000000000000000, 1.577021341797100025E-16, 0.000000000000000000 ) ) ;
#208 = DIRECTION ( 'NONE',  ( 1.000000000000000000, 0.000000000000000000, 0.000000000000000000 ) ) ;
#209 = DIRECTION ( 'NONE',  ( 1.000000000000000000, 0.000000000000000000, 0.000000000000000000 ) ) ;
#210 = AXIS2_PLACEMENT_3D ( 'NONE', #57, #240, #167 ) ;
#211 = CARTESIAN_POINT ( 'NONE',  ( -11.00000000000000000, -10.00000000000000000, 0.000000000000000000 ) ) ;
#212 = CC_DESIGN_PERSON_AND_ORGANIZATION_ASSIGNMENT ( #339, #227, ( #5 ) ) ;
#213 = CARTESIAN_POINT ( 'NONE',  ( -11.00000000000000000, -10.00000000000000000, 10.00000000000000000 ) ) ;
#214 = APPLICATION_PROTOCOL_DEFINITION ( 'international standard', 'config_control_design', 1994, #317 ) ;
#215 = CARTESIAN_POINT ( 'NONE',  ( 11.00000000000000000, 10.00000000000000000, 10.00000000000000000 ) ) ;
#216 = PERSON_AND_ORGANIZATION ( #19, #268 ) ;
#217 = ORIENTED_EDGE ( 'NONE', *, *, #127, .T. ) ;
#218 = ORIENTED_EDGE ( 'NONE', *, *, #283, .F. ) ;
#219 = EDGE_CURVE ( 'NONE', #39, #294, #180, .T. ) ;
#220 = VECTOR ( 'NONE', #313, 1000.000000000000000 ) ;
#221 = CC_DESIGN_SECURITY_CLASSIFICATION ( #5, ( #355 ) ) ;
#222 = FACE_OUTER_BOUND ( 'NONE', #298, .T. ) ;
#223 = AXIS2_PLACEMENT_3D ( 'NONE', #49, #107, #237 ) ;
#224 = AXIS2_PLACEMENT_3D ( 'NONE', #258, #205, #105 ) ;
#225 = DATE_AND_TIME ( #110, #281 ) ;
#226 = DESIGN_CONTEXT ( 'detailed design', #317, 'design' ) ;
#227 = PERSON_AND_ORGANIZATION_ROLE ( 'classification_officer' ) ;
#228 = CALENDAR_DATE ( 2021, 25, 10 ) ;
#229 = DIRECTION ( 'NONE',  ( 0.000000000000000000, 0.000000000000000000, 1.000000000000000000 ) ) ;
#230 = ADVANCED_FACE ( 'NONE', ( #359 ), #308, .F. ) ;
#231 = AXIS2_PLACEMENT_3D ( 'NONE', #233, #344, #139 ) ;
#232 = DIRECTION ( 'NONE',  ( 0.000000000000000000, 0.000000000000000000, -1.000000000000000000 ) ) ;
#233 = CARTESIAN_POINT ( 'NONE',  ( 0.000000000000000000, 0.000000000000000000, 10.00000000000000000 ) ) ;
#234 = EDGE_LOOP ( 'NONE', ( #353, #217, #337, #130 ) ) ;
#235 = ORIENTED_EDGE ( 'NONE', *, *, #163, .F. ) ;
#236 = AXIS2_PLACEMENT_3D ( 'NONE', #98, #93, #292 ) ;
#237 = DIRECTION ( 'NONE',  ( 0.000000000000000000, 0.000000000000000000, 1.000000000000000000 ) ) ;
#238 = VERTEX_POINT ( 'NONE', #390 ) ;
#239 = PLANE ( 'NONE',  #378 ) ;
#240 = DIRECTION ( 'NONE',  ( 0.000000000000000000, 0.000000000000000000, 1.000000000000000000 ) ) ;
#241 = LINE ( 'NONE', #61, #146 ) ;
#242 = DIRECTION ( 'NONE',  ( 0.000000000000000000, 0.000000000000000000, 1.000000000000000000 ) ) ;
#243 =( GEOMETRIC_REPRESENTATION_CONTEXT ( 3 ) GLOBAL_UNCERTAINTY_ASSIGNED_CONTEXT ( ( #186 ) ) GLOBAL_UNIT_ASSIGNED_CONTEXT ( ( #185, #62, #265 ) ) REPRESENTATION_CONTEXT ( 'NONE', 'WORKASPACE' ) );
#244 = DIRECTION ( 'NONE',  ( 0.000000000000000000, 0.000000000000000000, -1.000000000000000000 ) ) ;
#245 = ORIENTED_EDGE ( 'NONE', *, *, #135, .F. ) ;
#246 = ADVANCED_FACE ( 'NONE', ( #50 ), #352, .F. ) ;
#247 = APPROVAL_ROLE ( '' ) ;
#248 = VECTOR ( 'NONE', #119, 1000.000000000000000 ) ;
#249 = DIRECTION ( 'NONE',  ( 0.000000000000000000, 0.000000000000000000, -1.000000000000000000 ) ) ;
#250 = APPROVAL_PERSON_ORGANIZATION ( #372, #80, #374 ) ;
#251 = CARTESIAN_POINT ( 'NONE',  ( 0.000000000000000000, 0.000000000000000000, 3.500000000000000000 ) ) ;
#252 = DATE_AND_TIME ( #66, #307 ) ;
#253 = VECTOR ( 'NONE', #391, 1000.000000000000000 ) ;
#254 = VECTOR ( 'NONE', #25, 1000.000000000000000 ) ;
#255 = APPROVAL_PERSON_ORGANIZATION ( #187, #173, #247 ) ;
#256 = CARTESIAN_POINT ( 'NONE',  ( -11.00000000000000000, -10.00000000000000000, 0.000000000000000000 ) ) ;
#257 = CC_DESIGN_APPROVAL ( #173, ( #166 ) ) ;
#258 = CARTESIAN_POINT ( 'NONE',  ( 3.500000000000000000, 0.000000000000000000, 3.500000000000000000 ) ) ;
#259 = CARTESIAN_POINT ( 'NONE',  ( 11.00000000000000000, 10.00000000000000000, 0.000000000000000000 ) ) ;
#260 = CARTESIAN_POINT ( 'NONE',  ( 0.000000000000000000, 0.000000000000000000, 3.500000000000000000 ) ) ;
#261 = VERTEX_POINT ( 'NONE', #256 ) ;
#262 = ORIENTED_EDGE ( 'NONE', *, *, #163, .T. ) ;
#263 = EDGE_CURVE ( 'NONE', #39, #194, #138, .T. ) ;
#264 = CARTESIAN_POINT ( 'NONE',  ( 3.500000000000000000, 0.000000000000000000, -1.734723475976804925E-15 ) ) ;
#265 =( NAMED_UNIT ( * ) SI_UNIT ( $, .STERADIAN. ) SOLID_ANGLE_UNIT ( ) );
#266 = DIRECTION ( 'NONE',  ( 1.000000000000000000, 0.000000000000000000, 0.000000000000000000 ) ) ;
#267 = LINE ( 'NONE', #154, #74 ) ;
#268 = ORGANIZATION ( 'UNSPECIFIED', 'UNSPECIFIED', '' ) ;
#269 = EDGE_CURVE ( 'NONE', #294, #289, #65, .T. ) ;
#270 = DIRECTION ( 'NONE',  ( 0.000000000000000000, 0.000000000000000000, 1.000000000000000000 ) ) ;
#271 = DIRECTION ( 'NONE',  ( 1.000000000000000000, -8.673617379884039170E-17, 0.000000000000000000 ) ) ;
#272 = ORIENTED_EDGE ( 'NONE', *, *, #263, .F. ) ;
#273 = CARTESIAN_POINT ( 'NONE',  ( -5.500000000000000000, 6.735557395310442023E-16, 10.00000000000000000 ) ) ;
#274 = COORDINATED_UNIVERSAL_TIME_OFFSET ( 9, 0, .AHEAD. ) ;
#275 = CC_DESIGN_PERSON_AND_ORGANIZATION_ASSIGNMENT ( #193, #164, ( #355 ) ) ;
#276 = LOCAL_TIME ( 8, 59, 2.000000000000000000, #377 ) ;
#277 = EDGE_LOOP ( 'NONE', ( #132, #245, #73, #319 ) ) ;
#278 = CARTESIAN_POINT ( 'NONE',  ( 0.000000000000000000, 0.000000000000000000, 10.00000000000000000 ) ) ;
#279 = DIRECTION ( 'NONE',  ( 1.000000000000000000, 0.000000000000000000, 0.000000000000000000 ) ) ;
#280 = DATE_TIME_ROLE ( 'classification_date' ) ;
#281 = LOCAL_TIME ( 8, 59, 2.000000000000000000, #31 ) ;
#282 = EDGE_LOOP ( 'NONE', ( #51, #382 ) ) ;
#283 = EDGE_CURVE ( 'NONE', #201, #14, #241, .T. ) ;
#284 = ORIENTED_EDGE ( 'NONE', *, *, #158, .F. ) ;
#285 = ORIENTED_EDGE ( 'NONE', *, *, #151, .F. ) ;
#286 = DIRECTION ( 'NONE',  ( -8.673617379884039170E-17, -1.000000000000000000, 0.000000000000000000 ) ) ;
#287 = CARTESIAN_POINT ( 'NONE',  ( 11.00000000000000000, -10.00000000000000000, 10.00000000000000000 ) ) ;
#288 = CIRCLE ( 'NONE', #210, 3.500000000000000000 ) ;
#289 = VERTEX_POINT ( 'NONE', #150 ) ;
#290 = DIRECTION ( 'NONE',  ( 8.673617379884039170E-17, 1.000000000000000000, 0.000000000000000000 ) ) ;
#291 = ORIENTED_EDGE ( 'NONE', *, *, #333, .F. ) ;
#292 = DIRECTION ( 'NONE',  ( 1.000000000000000000, 0.000000000000000000, 0.000000000000000000 ) ) ;
#293 = AXIS2_PLACEMENT_3D ( 'NONE', #76, #271, #290 ) ;
#294 = VERTEX_POINT ( 'NONE', #2 ) ;
#295 = LINE ( 'NONE', #363, #23 ) ;
#296 = CARTESIAN_POINT ( 'NONE',  ( -11.00000000000000000, 10.00000000000000000, 10.00000000000000000 ) ) ;
#297 = CARTESIAN_POINT ( 'NONE',  ( 5.500000000000000000, 0.000000000000000000, 3.500000000000000000 ) ) ;
#298 = EDGE_LOOP ( 'NONE', ( #386, #272, #189, #195 ) ) ;
#299 = CIRCLE ( 'NONE', #168, 5.500000000000000000 ) ;
#300 = DIRECTION ( 'NONE',  ( 1.000000000000000000, 0.000000000000000000, 0.000000000000000000 ) ) ;
#301 = ORIENTED_EDGE ( 'NONE', *, *, #64, .F. ) ;
#302 = CYLINDRICAL_SURFACE ( 'NONE', #231, 3.500000000000000000 ) ;
#303 = COORDINATED_UNIVERSAL_TIME_OFFSET ( 9, 0, .AHEAD. ) ;
#304 = AXIS2_PLACEMENT_3D ( 'NONE', #278, #229, #72 ) ;
#305 = APPROVAL_DATE_TIME ( #335, #362 ) ;
#306 = EDGE_LOOP ( 'NONE', ( #284, #218, #170, #385 ) ) ;
#307 = LOCAL_TIME ( 8, 59, 2.000000000000000000, #97 ) ;
#308 = CYLINDRICAL_SURFACE ( 'NONE', #236, 3.500000000000000000 ) ;
#309 = CARTESIAN_POINT ( 'NONE',  ( 5.500000000000000000, 0.000000000000000000, 10.00000000000000000 ) ) ;
#310 = ADVANCED_FACE ( 'NONE', ( #144 ), #351, .F. ) ;
#311 = CARTESIAN_POINT ( 'NONE',  ( 11.00000000000000000, -10.00000000000000000, 0.000000000000000000 ) ) ;
#312 = ORIENTED_EDGE ( 'NONE', *, *, #376, .T. ) ;
#313 = DIRECTION ( 'NONE',  ( 0.000000000000000000, 0.000000000000000000, -1.000000000000000000 ) ) ;
#314 = ORIENTED_EDGE ( 'NONE', *, *, #158, .T. ) ;
#315 = ORIENTED_EDGE ( 'NONE', *, *, #160, .T. ) ;
#316 = FACE_BOUND ( 'NONE', #21, .T. ) ;
#317 = APPLICATION_CONTEXT ( 'configuration controlled 3d designs of mechanical parts and assemblies' ) ;
#318 = LINE ( 'NONE', #287, #128 ) ;
#319 = ORIENTED_EDGE ( 'NONE', *, *, #381, .F. ) ;
#320 = EDGE_CURVE ( 'NONE', #197, #261, #1, .T. ) ;
#321 = LINE ( 'NONE', #99, #56 ) ;
#322 = CARTESIAN_POINT ( 'NONE',  ( 0.000000000000000000, 0.000000000000000000, -1.734723475976804925E-15 ) ) ;
#323 = MANIFOLD_SOLID_BREP ( 'Imported1', #334 ) ;
#324 = CARTESIAN_POINT ( 'NONE',  ( -11.00000000000000000, -10.00000000000000000, 10.00000000000000000 ) ) ;
#325 = DIRECTION ( 'NONE',  ( 1.000000000000000000, 0.000000000000000000, 0.000000000000000000 ) ) ;
#326 = AXIS2_PLACEMENT_3D ( 'NONE', #175, #343, #134 ) ;
#327 = DIRECTION ( 'NONE',  ( 0.000000000000000000, 0.000000000000000000, 1.000000000000000000 ) ) ;
#328 = EDGE_CURVE ( 'NONE', #194, #39, #59, .T. ) ;
#329 = CARTESIAN_POINT ( 'NONE',  ( 11.00000000000000000, 10.00000000000000000, 0.000000000000000000 ) ) ;
#330 = APPROVAL_STATUS ( 'not_yet_approved' ) ;
#331 = CC_DESIGN_DATE_AND_TIME_ASSIGNMENT ( #191, #280, ( #5 ) ) ;
#332 = APPROVAL_STATUS ( 'not_yet_approved' ) ;
#333 = EDGE_CURVE ( 'NONE', #14, #197, #63, .T. ) ;
#334 = CLOSED_SHELL ( 'NONE', ( #230, #42, #371, #384, #33, #120, #310, #133, #246, #11, #89 ) ) ;
#335 = DATE_AND_TIME ( #40, #188 ) ;
#336 = VERTEX_POINT ( 'NONE', #360 ) ;
#337 = ORIENTED_EDGE ( 'NONE', *, *, #71, .T. ) ;
#338 = VECTOR ( 'NONE', #249, 1000.000000000000000 ) ;
#339 = PERSON_AND_ORGANIZATION ( #19, #268 ) ;
#340 = CC_DESIGN_APPROVAL ( #362, ( #5 ) ) ;
#341 = CARTESIAN_POINT ( 'NONE',  ( 3.500000000000000000, 0.000000000000000000, 10.00000000000000000 ) ) ;
#342 = PERSON_AND_ORGANIZATION ( #19, #268 ) ;
#343 = DIRECTION ( 'NONE',  ( 0.000000000000000000, 0.000000000000000000, 1.000000000000000000 ) ) ;
#344 = DIRECTION ( 'NONE',  ( 0.000000000000000000, 0.000000000000000000, 1.000000000000000000 ) ) ;
#345 = CC_DESIGN_PERSON_AND_ORGANIZATION_ASSIGNMENT ( #216, #9, ( #122 ) ) ;
#346 = ORIENTED_EDGE ( 'NONE', *, *, #320, .T. ) ;
#347 = LOCAL_TIME ( 8, 59, 2.000000000000000000, #274 ) ;
#348 = ORIENTED_EDGE ( 'NONE', *, *, #86, .F. ) ;
#349 = ORIENTED_EDGE ( 'NONE', *, *, #183, .T. ) ;
#350 = LINE ( 'NONE', #388, #254 ) ;
#351 = PLANE ( 'NONE',  #293 ) ;
#352 = CYLINDRICAL_SURFACE ( 'NONE', #37, 5.500000000000000000 ) ;
#353 = ORIENTED_EDGE ( 'NONE', *, *, #373, .F. ) ;
#354 = VECTOR ( 'NONE', #48, 1000.000000000000000 ) ;
#355 = PRODUCT_DEFINITION_FORMATION_WITH_SPECIFIED_SOURCE ( 'ANY', '', #122, .NOT_KNOWN. ) ;
#356 = DIRECTION ( 'NONE',  ( 1.000000000000000000, 0.000000000000000000, 0.000000000000000000 ) ) ;
#357 = VERTEX_POINT ( 'NONE', #114 ) ;
#358 = CARTESIAN_POINT ( 'NONE',  ( 0.000000000000000000, 0.000000000000000000, -1.734723475976804925E-15 ) ) ;
#359 = FACE_OUTER_BOUND ( 'NONE', #162, .T. ) ;
#360 = CARTESIAN_POINT ( 'NONE',  ( 11.00000000000000000, -10.00000000000000000, 0.000000000000000000 ) ) ;
#361 = DIRECTION ( 'NONE',  ( 0.000000000000000000, 0.000000000000000000, 1.000000000000000000 ) ) ;
#362 = APPROVAL ( #332, 'UNSPECIFIED' ) ;
#363 = CARTESIAN_POINT ( 'NONE',  ( -3.500000000000000000, 4.286263797015736595E-16, 10.00000000000000000 ) ) ;
#364 = ORIENTED_EDGE ( 'NONE', *, *, #183, .F. ) ;
#365 = VECTOR ( 'NONE', #244, 1000.000000000000000 ) ;
#366 = APPLICATION_PROTOCOL_DEFINITION ( 'international standard', 'config_control_design', 1994, #55 ) ;
#367 = VERTEX_POINT ( 'NONE', #329 ) ;
#368 = FACE_OUTER_BOUND ( 'NONE', #306, .T. ) ;
#369 = FACE_BOUND ( 'NONE', #75, .T. ) ;
#370 = CIRCLE ( 'NONE', #304, 5.500000000000000000 ) ;
#371 = ADVANCED_FACE ( 'NONE', ( #35, #369 ), #239, .T. ) ;
#372 = PERSON_AND_ORGANIZATION ( #19, #268 ) ;
#373 = EDGE_CURVE ( 'NONE', #96, #198, #299, .T. ) ;
#374 = APPROVAL_ROLE ( '' ) ;
#375 = APPROVAL_STATUS ( 'not_yet_approved' ) ;
#376 = EDGE_CURVE ( 'NONE', #194, #289, #295, .T. ) ;
#377 = COORDINATED_UNIVERSAL_TIME_OFFSET ( 9, 0, .AHEAD. ) ;
#378 = AXIS2_PLACEMENT_3D ( 'NONE', #181, #112, #90 ) ;
#379 = ORIENTED_EDGE ( 'NONE', *, *, #333, .T. ) ;
#380 = LINE ( 'NONE', #30, #220 ) ;
#381 = EDGE_CURVE ( 'NONE', #336, #367, #267, .T. ) ;
#382 = ORIENTED_EDGE ( 'NONE', *, *, #373, .T. ) ;
#383 = FACE_OUTER_BOUND ( 'NONE', #277, .T. ) ;
#384 = ADVANCED_FACE ( 'NONE', ( #7 ), #147, .F. ) ;
#385 = ORIENTED_EDGE ( 'NONE', *, *, #182, .T. ) ;
#386 = ORIENTED_EDGE ( 'NONE', *, *, #376, .F. ) ;
#387 = CYLINDRICAL_SURFACE ( 'NONE', #192, 5.500000000000000000 ) ;
#388 = CARTESIAN_POINT ( 'NONE',  ( 5.500000000000000000, 0.000000000000000000, 10.00000000000000000 ) ) ;
#389 = DIRECTION ( 'NONE',  ( -8.673617379884039170E-17, -1.000000000000000000, 0.000000000000000000 ) ) ;
#390 = CARTESIAN_POINT ( 'NONE',  ( -5.500000000000000000, 6.735557395310442023E-16, 10.00000000000000000 ) ) ;
#391 = DIRECTION ( 'NONE',  ( 1.000000000000000000, 0.000000000000000000, 0.000000000000000000 ) ) ;
ENDSEC;
END-ISO-10303-21;
